Spafford Tab: In the Eyes of Thieves



  • Red Intro
    e|-------------------------------------------||
    B|-------------------------------------------||
    G|------------------------------------------o||
    D|-------7------5---------------------------o||
    A|-----------7------7---5--------------------||
    E|--5-------------------------3--------------||4 times
    
    guitar hit
    e|-------------------------|
    B|-------------------------|
    G|-------------------------|
    D|----7--------------------|
    A|----7--------------------|
    E|----5--------------------|
    
    e|-------------------------------------------||
    B|-------------------------------------------||
    G|------------------------------------------o||
    D|-------7------5---------------------------o||
    A|-----------7------7---5--------------------||
    E|--5-------------------------3--------------||3 times
    
    e|-------------------------|
    B|-------------------------|
    G|-------------------------|
    D|5---4---5---4-----7------|
    A|-------------------------|
    E|-------------------------|
    
    Brian
    e|------------------------------------------||
    B|------------------------------------------||
    G|-----9---------7-------------------------o||
    D|7--------10-------10-10--9-9-------------o||
    A|-----------------------------10-----------||
    E|------------------------------------------|| 3 times
    
    e|----------------------------|
    B|----------------------------|
    G|9b-------------12--9--------|
    D|----12--10--9---------------|
    A|----------------------------|
    E|----------------------------|
    
    e|------------------------------------------||
    B|------------------------------------------||
    G|-----9---------7-------------------------o||
    D|7--------10-------10-10--9-9-------------o||
    A|-----------------------------10-----------||
    E|------------------------------------------|| 4 times
    
    e||-------------------|--------------------|
    B||-10------8---------|10-----8------------|
    G||o-----9------7-9---|-----9-----7-9------|
    D||o---------------10-|--------------------|
    A||-------------------|--------------------|
    E||-------------------|--------------------|
    
    e|------------------|---------------------------------12-14-15-17||
    B|10------8---------|-------------------------12-13-14-----------||
    G|-----9------7-9---|-----------------11-12-14-------------------o||
    D|---------------10-|---------10-12-14---------------------------o||
    A|------------------|-10-12-14-----------------------------------||
    E|------------------|--------------------------------------------|| 2 times
    
    | Bm7b5 / / / | E7#9 / / / | Am7 / / / | / / / / |
    | Bm7b5 / / / | E7#9 / / / | Cmaj7 / / / | / / / / |
    |F#m7  / / / |B7  / / / |Em7  / Eb / | F / D7 / |
    | F / / / | / / / / |Dsus4  / / / |D / / / / |
    
    Verse:
    ||:Am7 / / / | F/A / / / | G/B / / / | F / / / :|| 
    
       Bm7b5 E7#9 Am7   Cmaj7  F#m7 B7  Em7 Eb  F/A  D7  Dsus4 D
    e|-----------------------------------------------------------|
    B|6--------8---5------8-----10-------8---8---6----7--8-----7-|
    G|7--------7---5------9-----9----8---7---8---5----5--7-----7-|
    D|7--------6---5------9-----11---7---9---8---7----7--7-----7-|
    A|---------7----------------9--------7---6-------------------|
    E|7------------5------8----------7---------------------------|
    
    G/B is the same shape as F/A, just a whole step higher.

Log in to reply
 

Looks like your connection to Spaffnerds was lost, please wait while we try to reconnect.