Spafford Tab: Bee Jam



  • Original Spafford Song Bee Jam
    Tabbed By Andrew Gonzalez

    Transition from All My Friends:

    A / / / | / / / / | D / / / | / / / / | ((palm mute straight 8th notes))

    The riff is a simple, but catchy B minor pentatonic lick.
    E|-------------------------------------------
    B|--------------------------------------------
    G|--------------------------------------------
    D|-----------------9---------7---------------
    A|------------------------/9-----9--(7)------
    E|----7--7----7-------------------------10--- 8 times (rhythm changes 7th time slightly)

    8 bars of chill Bm groove

    Riff again:
    E|-------------------------------------------
    B|--------------------------------------------
    G|--------------------------------------------
    D|-----------------9---------7---------------
    A|------------------------/9-----9--(7)------
    E|----7--7----7-------------------------10--- 8 times (rhythm changes 7th time slightly)

    Bm jam out.

    When I play Bee Jam, I play the ghosted ( 7) note. Brian may or may not. Listen and decide what sounds good to you.


Log in to reply