Weasel



  • Version= 3/16/17 Marquee Theatre. I'll be uploading this tab as soon as I can get the rest of it figured out.
    Have most of the main sections figured out just need to work on the jam a bit more



  • This is my first tab so it might not be perfect but I'm pretty sure its close.
    Intro
    E|--------------------
    B|--------------------
    G|----------------------- X3
    D|-----4-----4---------
    A|--------2-----2--4---
    E|--2-------------------
    Third time hold F# on the E string for the high hat hits

    Intro X4

    Would you throw a weasel in the wind sometime
    E|----------------
    B|----------------
    G|----------------
    D|--4------------
    A|--4--(hold)--
    E|--2-------------

    A forgotten space in the back of your mind
    (Pick Scrape)

    B C# (Intro Riff)
    I don’t care, no. It’s so hard to remember

    F#(Power Chord)
    I’ve been waiting in this so long
    When it comes, will it all be right?
    Running like a renegade

    B C# (Intro Riff x2)
    I don’t care, no. It’s so hard to remember

    C# E C# E
    And so feel it coming now, Pushing upward and through the ground
    C# E C# (Intro Riff)
    To be there waiting fooooooooor you!

    Into the Jam Play around in F#m

    Outro Jam
    E|--------------------------------
    B|------------------ 10-9-10---
    G|---8h9h10h11--------------
    D|-------------------------------- x2
    A|--------------------------------
    E|--------------------------------

    E|----------------------------------------
    B|------------------10-9-10-10/12--9
    G|--8h9h10h11-----------------------
    D|----------------------------------------
    A|----------------------------------------
    E|----------------------------------------
    Repeat this a couple times and then jam a bit more then go into....

    E|-----------------------17--16--17--
    B|--16h17h18h19------------------
    G|--------------------------------------
    D|-------------------------------------- x2
    A|--------------------------------------
    E|--------------------------------------

    E|-----------------------17--16--17--17/19--16
    B|--16h17h18h19------------------------------
    G|--------------------------------------------------
    D|--------------------------------------------------
    A|--------------------------------------------------
    E|--------------------------------------------------


Log in to reply
 

Looks like your connection to Spaffnerds was lost, please wait while we try to reconnect.