Legend - Chords and Lyrics (Couple licks added for fun)



  • Dm: x-5-7-7-6-5
    F: x-8-10-10-10-8
    Gm: 3-5-5-3-3-3
    A#: x-1-3-3-3-1
    Em7b5: x-7-8-7-8-x
    A7: x-x-7-9-8-9

    Intro: Dm – F

    Alternate Dm – F 
    I should have been a writer, I should have been a King
    Alternate Gm – A# 
    I could have been anything I wanted, 
    Alternate Dm - F
    But all I do is dream
    Em7b5
    So take me there I know you’re going
    A7                 Dm     F
    Take me there oh please
    

    Same progression as above for next verses

    It’s a sticky situation
    When all we do is laugh *Lick A
    Shoulda made a wrong turn now
    Got me on the right path *Lick B
    So take me there I know you’re going
    Take me there at last.

    *Lick A
    e|--------------------------------------------------------|
    B|--------------------------------------------------------|
    G|---Rake into 12b13r12p10----10----12b13r12p10--12b13v---|
    D|-------------------------12-----------------------------|
    A|--------------------------------------------------------|
    E|--------------------------------------------------------|
    
    12b13r12p10 description: From the 12, bend up a half step to 13 tone then release back to 12 tone then pulling off 12 getting the tone of the 10. 
    v= Vibrato 
    
    *Lick B (Hendrix-like double stops)
    e|--------------------------------------------------------|
    B|--------------------------------------------------------|
    G|--10-----10---------10------10---------12b13r12p10------|
    D|--10-h12-10----10---10-h12--10-h12v----------------12---|
    A|------------12------------------------------------------|
    E|--------------------------------------------------------|
    h= hammer on
    
    *Lick C
    e|--------------------------------------------------------|
    B|-(13b15v)s--(13b15)q--13--------------------------------|
    G|--------------------------12b13r12p10-----10h12-10------|
    D|-- ----------------------------------12------------12---|
    A|--------------------------------------------------------|
    E|--------------------------------------------------------|
    s= slow phrase
    q= quick
    

    I should have been a writer
    I should have been a king
    I could have been anything, anything I’ve wanted
    But all I do is dream *Lick C

    Guitar solo

    So take me there I know you’re going
    Take me there oh please.


Log in to reply