When it Falls - Chords and Lyrics (Improved)



  • Short lick example for Chorus
    e|-----7h9p7-------|
    B|--7h9-----9p7----|
    G|-----------------|
    D|-----------------|
    A|-----------------|
    E|-----------------|
    

    Intro
    Bm D E (4x)

    Verse 
    A                   D                     E
    Falling all over myself to retrace whats left.
    A                       D                       E
    Looking back at all the pieces is getting to my head.
    A                    D                        E
    Like a thousand tiny footprints buried in the sand…
             Dbm7  D                    E  
    As if to say, “Things work out this way.”
    
    Chorus
    E         A              D       A
    Watch the water, pour it over my soul.
    D       A                     Bm         E
    When it falls, the rocks will scatter my bones.
            E             A               D                     A
    Let the waves take me out to sea, the tide will have what’s left of me.
    C                  G            D       (Short lick)
    And I will find my purpose once again.
    C             G        Bm   D  E
    I will find my purpose…once again.
    

    Bm D E (4x)

    Verse
    A                    D                            E                                    
    Walking out on to a ledge where nobody else could see.
    A                             D                               E
    Each choice is leading to the moment, and a chance to let our steps decide the way.
    A                          D                     E
    Blindly give up everything, never know or reason why.
    Bm      A                 E
    Circles fading in to distant skies…
    

    Chorus

    Repeat 2x
    e|----------------------------------------------------------------------|
    B|----------------------------------------------------------------------|
    G|------------------6---------7------1--1--1---/9-6-6-7-----------------|
    D|--9-7-6-9---9-7-6-----9-7-6---7-9--2--2--2------------7-7h9-----------|
    A|-----------------------------------2--2--2------------------7---------|
    E|-----------------------------------0--0--0----------------------------|
    
    e|----------------------------------------------------------------------|
    B|---------------------------------------------------7------------------|
    G|------------------6---------7---------------/9-6-7---9----------------|
    D|--9-7-6-9---9-7-6-----9-7-6---7-9--7-6--------------------------------|
    A|----------------------------------------------------------------------|
    E|----------------------------------------------------------------------|
    
      |   repeat 7x   |    8th time     |        G#m  D  G#m  DDD  G#m  D  G#m  DDDD EE-EEE
    e|------------------------------------|
    B|------------------------------------|
    G|--9-6-7---6---------9-6-7-----------|
    D|--------9---7-------------7-9-4-6---|
    A|------------------------------------|
    E|------------------------------------|
    
    Chorus 2x
    

    Exit lick E
    e|----------------------------------7------|
    B|----------------------------------9------|
    G|------------------6----------7-8--9------|
    D|--9-7-6-9---9-7-6-----9-7-6-------9------|
    A|----------------------------------7------|
    E|----------------------------------7------|


Log in to reply