Virtual Bean Dip - Tabs



  • e|-------------------------------------------------7-----------------|
    B|-------------------------------------------------8-----------------|
    G|-------------------------------------------------7-----------------|
    D|-------------------------------------------------9-----------------|
    A|---------7-----8-7-5---------------7-------------7-----------------|
    E|--5-7-8----8-7---------8-7---5-7-8--8-7--5-5--5--0-----------------|
    
    e|-------------------------------------------------------------------|
    B|-------------------------------------------------------------------|
    G|-------------------------------------------------------------------|
    D|---------------------------------------------------5-7-5-----------|
    A|-------7------8-7-5-------------5-----5-7----5-7-8-------8---------|
    E|---5-8--8-7---------8-7---5-7-8--7-8-------8-----------------------|
    
    e|-------------------------------------------------------------------|
    B|-------------------------------------------------------------------|
    G|---------------------------------------------------5---------------|
    D|---------------------------------------------------5---------------|
    A|--------7--------8-7-5-------------7---------------x---------------|
    E|--5-7-8--8-7-8---------8-7---5-7-8---8-7-5-5-5-5---5---------------|
    
    e|-------------------------------------------------------------------|
    B|-------------------------------------------------------------------|
    G|-------------------------------------------------------------------|
    D|----------------------------------------------------5-7-5----------|
    A|-------7------8-7-5------------5-----5-7------5-7-8-------8--------|
    E|---5-8--8-7--------8-7---5-7-8---7-8---------8---------------------|
    
         Am7   G       Am7                          Am7  
    e|-------------5-----------------------------------------------------|
    B|-------------5-----------------------------------------------------|
    G|---5-5---4-4-4----5-------5-5-----5-3------3---5----7/9-7p-5-------|
    D|---5-5---5-5------5-------5-5---------5-3-5----5-------------7-----|
    A|---x-x---5-5------x-------x-x------------------x-------------------|
    E|---5-5---3-3------5-------5-5------------------5-------------------|
                               [This section repeats 3 times - - - - - - ] 
    

    Build up…Em…… “A C G Abm A C G Abm A C” ...Repeat.

    Melodic progression: C F Am G (Loop this progression to play Am scale all day)

    Repeat below 8 times (slightly different syncopation pattern)
    e|-----------------------------|
    B|-----------------------------|
    G|--------------5----9---------|
    D|--------------5----9---------|
    A|--------7-----7----7---------|
    E|--5-7-8---8---5----7---------|
    

    Start over from the beginning…


Log in to reply