Palisades - Intro melody and part of the later melody (WIP)



  • The x’s are muted notes
    Repeat this 3 times

    e|---10----10----10-----12-9--10----10----10----12-9--10----10----10----12-9--10-9-----------------|
    B|-xx--9-xx--9-xx--9-xxx----xx--9-xx--9-xx--9-xx----xx--9-xx--9-xx--9-xx----------9-7-7-9----------|
    G|---------------------------------------------------------------------------------------6h7p6-----|
    D|--------------------------------------------------------------------------------------------9-7--|
    A|-------------------------------------------------------------------------------------------------|
    E|-------------------------------------------------------------------------------------------------|
    

    Repeat this 4 times

    e|--------------------------------------------------------|
    B|------7-8-10-----7h8p7---------7-8-12--14h15p14---------|
    G|--7-9-----------------9-----7-9-----------------16-14---|
    D|-----------------------7--------------------------------|
    A|--------------------------------------------------------|
    E|--------------------------------------------------------|
    

    Repeat this 2x
    D A G A, D A G AA

    |---Repeat this 2 times --------|
    | Build up           | Softly   |          Build up
      F#   G#    A    B    C#m    D            F#  G#  A   B   B  C#  D   E   E   F#  G#  A    
    
    s=sustain
    Repeat this 2 times
    e|-----------------------------------------------------------------------------------|
    B|--13--13--12----15-13-12-------------15-15-13-12-----13--13--12---15-15-13-12------|
    G|----14--14--14----------14s-----14-14-----------14-----14--14--14------------14s---|
    D|-----------------------------------------------------------------------------------|
    A|-----------------------------------------------------------------------------------|
    E|-----------------------------------------------------------------------------------|
    

Log in to reply