Windmill - Chords and Lyrics



  • FYI.. There's an excellent video post from mikeniv7 in this forum for the ending lead parts. Check it out!

    Alternate E to A throughout verses.

    Chord fingering for verses
    E (x-7-9-9-9-7)
    A (x-x-11-9-10-9) Every other time (at the end) add your pinky on 12 b-string (C)

    Verse 1
    Evolving sound of light and waves
    Cuts through mist of nothingness
    The base of it goes on for days
    Windmill turning effortless

    The lick (1 of 2)  [/ is slide up]
    e|-----------11--9-7----|
    B|---------9-------7----|
    G|-------9--------------|
    D|--/11-----------------|
    A|----------------------|
    E|----------------------|
    

    My head turns away

    Verse 2
    Exchanging rays of mental dues
    Accepting moods that new grooves proves
    A simple song, it has no cost
    Through this rif my troubles’ lost

    Right after cool lick, open chords… E D A

    Chorus
    All open chords during chorus 
    A                    E    D A                                        
    You got me thinking again
                                       E   D A
    Open my mind and leave the dregs behind
                            E   D A 
    You’ve got me dreaming again
                      G   D    G   D    G   D    E
    Open my mind to a new way, new way, new way, yea…
    

    Alternate E to A, transition into vamping on E

    Verse 3
    Empty nights, chaotic days
    Transcend throughout enormous space
    Electric motion set in phase
    Spun to spiral out of place

    The lick (1 of 2)
    e|-----------11--9-7----|
    B|---------9-------7----|
    G|-------9--------------|
    D|--/11-----------------|
    A|----------------------|
    E|----------------------|
    
    The lick… (2 of 2)
    e|-----------11--9-9----|
    B|---------9-------9----|
    G|-------9--------------|
    D|--/11-----------------|
    A|----------------------|
    E|----------------------|
    

    Chorus
    You got me thinking again
    Open my mind and leave the dregs behind
    You’ve got me dreaming again
    Open my mind to a new way

        E  A  E  A   E     A      Gbm 
    A long         way from fine...
    

    Quiet break

    Abm7   A   Abm7  A  D   Dbm   A  B  
    Abm7   A   Abm7  D  Dbm Gb    D  C  B
    Repeat 
    
    E  Gbm  Abm  Gbm 
    Repeat a few times, ending this phrase on B 
    

Log in to reply