Doghouse - Chords and Lyrics



  • Intro Bass lick ends with A#, F
    Then slide half step into C strum then A#, F
    C7 (8-10-8-9-8-8) Try catching the the A# with your pinky every other time)
    A# (x-1-3-3-3-1)
    F (1-3-3-2-1-1)
    C (x-3-5-5-5-3)

    Verse 1
    C7
    Calling all known associates, Help this man!
             A#                 F
    An empty hallway fills with echoes,
    C7
    Too much space on inside his head. She wants to see it, wants to make it clear.
              A#                F
    A shallow pool reflects the memories,
    C7                                        
    A single drop is pouring in.
    
    Transition Lick 
    e|---------------------------------------------------------------------------------------------|
    B|-------8----------11-----------11--------11--8-------8----------11----------11-----13/15/13--|
    G|-----9---9------12---12-----12---12----10----------9---9-----12---12-----12---12-------------|
    D|--/10--------/12---------/12---------/8---------/10-------/12---------/12--------------------|
    A|---------------------------------------------------------------------------------------------|
    E|---------------------------------------------------------------------------------------------|
    
    e|---------------------------------------------------------------------------------------------|
    B|-------8---------11-----------11----------11--8------8----------11----------11-------13------|
    G|-----9---9-----12---12------12---12----10----------9---9----12----12-----12----12------------|
    D|--/10-------/12----------/12---------/8---------/10-------/12---------/12--------------------|
    A|---------------------------------------------------------------------------------------------|
    E|---------------------------------------------------------------------------------------------|
    
    Chords behind lick
    C D# A# C     C D# A# C
    C D# A# C     C D# A# C
    

    Verse 2
    The mail came with a message,
    Delivered to his hands.
    Heartbeat racing through the building,
    Flooding out in to the streets.
    Got to keep it moving, Got to make amends.
    A clever worm is somewhere dreaming
    Oh the joys of sleeping in.

    Transition Lick

    Jam progression C…….. A# F

    C                      A#
    Crawling back, calling out into the darkness.
      F                              C
    A hand is reaching up To clear a path beneath the weight.
    C             A#                            D#               A#                C
    Tuning in, approaching perfect clarity. The air is deep, the rivers running wide.
    

    Intro Bass Lick into A# F

    Verse 3
    Calling all know associates,
    Help this man!
    And empty hallway filled with echoes
    Like the space inside his head.
    She needs to see it,
    She wants it to be near.
    The pool runs over with reflections,
    A single drop is pouring in.

    Repeat Transition Lick then end with verse progression ending on a C



  • kudos for posting!



  • These are awesome, thanks!

    I'm newer to guitar than you, but...isn't it a C7?



  • Marc, Hi. You're right. Its is C7. Thanks for the help. This is Jeff Stewart btw.


Log in to reply