Gold Glittered Hat - Simple Lick



  • e|------------------------------|
    B|------------------------------|
    G|------------------------------|
    D|------------------------------|
      | Repeat 4x |   | Repeat 4x |
    A|----5-6-7----------5-6-7------|
    E|----------8--------------5----|
    
    Chords:   C           Am
    
    Or try the double stop version 
    e|--------------------------------|
    B|--------------------------------|
    G|--------------------------------|
    D|--------------------------------|
      | Repeat 4x |  | Repeat 4x |
    A|----5-6-7-7-------5-6-7-7-------|
    E|----------8-------------5-------|
    

    Soloing in Am Pentatonic sounds great.



  • @casey-jones I’ve been starting it playing 4 measures ending on A and then 4 measures ending on C


Log in to reply