The Remedy - Chords and Lyrics



  • Signature organ lick on guitar
    
    Option 1 (higher)
    e|------17-17--15h17p15--14-12--------------------------17-17--19b20-19---19b20-17-----|
    B|-----------17---------------15--14-15-14-15-14---------------------------------------|
    G|-14-14-----------------------------------------14--14--------------------------------|
    D|-------------------------------------------------------------------------------------|
    A|-------------------------------------------------------------------------------------|
    E|-------------------------------------------------------------------------------------|
    
    Option 2 (lower)
    e|-----5-5----3h5p3--2-0----------------------5-5---7b8-7---7b8-5-----|
    B|---------5-------------3--2-3-2-3-2---------------------------------|
    G|--2-2----------------------------------2--2-------------------------|
    D|--------------------------------------------------------------------|
    A|--------------------------------------------------------------------|
    E|--------------------------------------------------------------------|
    
    A                   G      D    A
    I’ve looked for the remedy of today
         G                     D                   A
    With spinning lights, it comes down your face, oh!
    A                     G     D
    I’ve walked for these dreams
    A                         G     D
    When it’s over now, in my dreams
    
    Chorus 1
    
    C   G   D
    
    D                   C    G  D
    It’s already coming over
    D                    C    G  D 
    It’s already in your hand
    D                         C     G  D 
    Do you think it’s won you over     again?
    

    Drop down everybody
    With the lights it comes the face you’re on the wall
    The hard times letting go
    Drop down everybody
    With the lights it comes down the road
    See the lights as it comes to home.

    Chorus 2
    
    Am   G  D
    
    D                    Am   G D                                    
    It’s already coming over
    D                    Am  G  D
    It’s already in your hand
    D                          Am  G  D                               
    Do you think it’s won you over   again?
    

    Signature lick

    Long Jam

    A G D

    Chorus 1

    Chorus 2


Log in to reply