Walls - Chords, Lyrics, and Tab for the Ending



  • Em (x-7-9-9-8-7)
    Bm (7-9-9-7-7-7)
    D (x-5-7-7-7-5)

    1st time through verse: Em groove with a short Bm leading into the 1
    2nd time through verse: Em groove with a short D leading into the 1
    Long jam mostly over Em and/or Em7

    Verse
    Walls are coming down, They’re crumbling
    Walls are coming down, I’m stumbling

    Walls are coming down, They’re crumbling
    Walls are coming down, I’m stumbling

    Part A (Repeat this about 7 times)
    e|-----------------------------------|
    B|-----------------------------------|
    G|--------12-11----------------------|
    D|-12-14--------12-/14-12------------|
    A|-------------------------12-/14----|
    E|-----------------------------------|
    

    Alternate parts B and C (twice each)

    Part B
    e|--------------------------------------------------------------|
    B|--------------------------12------13-12-----------------------|
    G|-------12-11--11-14-12-12----14-14------14-12-11h12p11--------|
    D|-12-14-------------------------------------------------14-----|
    A|--------------------------------------------------------------|
    E|--------------------------------------------------------------|
    
    Part C 
    e|---------------------------------------------------12--|
    B|---------------------------12-------13-12-------15-----|
    G|--------12-11--11-14-12-12----14-14-------14-12--------|
    D|-12-14-------------------------------------------------|
    A|-------------------------------------------------------|
    E|-------------------------------------------------------|
    
    Part D (repeat this 3 times)
    e|-------15-14--------------------------|
    B|-15-17-------15-/17-15----------------|
    G|-----------------------14-16-16-16----|
    D|--------------------------------------|
    A|--------------------------------------|
    E|--------------------------------------|
    
    Part E (Improvise after this) 
    e|------15-14--------------------------------------------------|
    B|-15-17------15-/17-15--------15-17b19-b19-b19-b19-17-15-17---|
    G|----------------------14-16----------------------------------|
    D|-------------------------------------------------------------|
    A|-------------------------------------------------------------|
    E|-------------------------------------------------------------|
    

Log in to reply