Alternate Ending Tabs



  • The version I’m listing to is 10/14/19 Nashville, TN. Because I was there!

    Key of D

    Alternate D to G. Four counts of each.
    Light melodic notes in the D major or D major pentatonic scales for about 5 minutes.
    For the build up stay on D for about 20 bars playing the lick below

    e|--10---------|   or  e|-----------|     
    B|------10-----|       B|--15-------|
    G|----------11-|       G|-----14----|
    D|-------------|       D|--------16-|
    A|-------------|       A|-----------|
    E|-------------|       E|-----------|
    
    

    After the build up

    Alternate D to G. Eight counts of each over the solo below.

      |------------Repeat 3X------------|--------4th time--------------------------------|
    e|-14-14-14--------15-15-15-14---------13h14-14-----13h14-14-----------13h14-14-14-----|
    B|----------15-15-------------15-17-------------15-----------15-15-----------------15--|
    G|-------------------------------------------------------------------------------------|
    D|-------------------------------------------------------------------------------------|
    A|-------------------------------------------------------------------------------------|
    E|-------------------------------------------------------------------------------------|
    

    Alternate D to G. Eight counts of each. Many times. Didn't count.

    Example soft background lick.  
    e|----------------------------------|
    B|----------------------------------|
    G|----------------------------------|
    D|----------------------------------|
    A|-9h12-12-12p9-----9h12-12-12p9----|
    E|-------------12---------------10--|
    

    Build back up to the lick above.. Ending licks tbd……..


Log in to reply