Steak Sauce



  • D7 to Em7b5 (8 times)

    D7 (X-5-7-5-7-5)
    Em7b5 (X-7-8-7-8-X)

    Intro into the jam  (slide into the start of each lick)
    e|----------------------------------------------------------------------|
    B|----------------------------------------------------------------------|
    G|---------------------/4--5p4-5-6-7--------------------/4--5p4-5-6-7---|
    D|----/4--5p4-5-6-7---------------------/4--5p4-5-6-7-------------------|
    A|----------------------------------------------------------------------|
    E|----------------------------------------------------------------------|
    
    e|-----------------/8--8p7-8-9-10---------------/8--8p7-8-9-10--------------18---------|
    B|---/7-8p7-8-9-10-----------------/7-8p7-8-9-10----------------20-20-20-20-----18/19--|
    G|-------------------------------------------------------------------------------------|
    D|-------------------------------------------------------------------------------------|
    A|-------------------------------------------------------------------------------------|
    E|-------------------------------------------------------------------------------------|
    

    After the Jam

    D7 to Em7b5 (9 times)


Log in to reply